4 notes ascending and descending orders

(/) Slide Up  (\) Slide Down  (h) Hammer On  (p) Pull Off  (b) Bend (r) Release (v) Vibrato

E|--------------------------------------------------------------
B|--------------------------------------------------------------
G|-----------------------------------2--------2--4-----2--4--5--
D|--------2--3-----2--3--5--2--3--5-----3--5--------5-----------
A|--3--5--------5-----------------------------------------------
E|--------------------------------------------------------------



E|-----------------------------------5--------5--7-----5--7--8--
B|--------5--6-----5--6--8--5--6--8-----6--8--------8-----------
G|--5--7--------7-----------------------------------------------
D|--------------------------------------------------------------
A|--------------------------------------------------------------
E|--------------------------------------------------------------
http://www.guitartabcreator.com
Guitar Tab Creator is intended to store guitar tab created through the tool. It currently does not support in-line text editing. Any text you place in here will be lost. If you need to comment on your tab, please use the "Tab Notes" section located below.