Three Days Grace - Never Too Late, open chord tab.

Three Days Grace - Never Too Late, open chord tab

Guitar 1 - Drop D Tuning
Guitar 2 - Standard Tuning

Intro
Guitar 1

E|---------------------------------------------------------------------------|
B|---------------------------------------------------------------------------|
G|---------------------------------------------------------------------------|
D|----10---10-8-7-0---10---10-8-7-0---10---10-8-7-0---10---10-8-7-0---10--10-|
A|---8--8-0----------8--8-0----------8--8-0----------8--8-0----------7--7-10-|
D|--8----0----------8----0----------8----0----------8----0----------7-----10-|

Verse 1
Guitar 1

E|---------------------------------------------------------------------------|
B|---------------------------------------------------------------------------|
G|---------------------------------------------------------------------------|
D|----10---10-8-7-0---10---10-8-7-0---10---10-8-7-0---10---10-8-7-0---10--10-|
A|---8--8-0----------8--8-0----------8--8-0----------8--8-0----------7--7-10-|
D|--8----0----------8----0----------8----0----------8----0----------7-----10-| (x2)

Chorus
Guitar 2

D A# A C
Even if I say, it'll be alright,
D A# A C
Still I hear you say, you want to end your life.
D A# A C
Now and again we try, to just stay alive,
A# D A C
Maybe we'll turn it around, 'cause it's not too late, It's never too late.

Verse 2
Guitar 1

E|---------------------------------------------------------------------------|
B|---------------------------------------------------------------------------|
G|---------------------------------------------------------------------------|
D|----10---10-8-7-0---10---10-8-7-0---10---10-8-7-0---10---10-8-7-0---10--10-|
A|---8--8-0----------8--8-0----------8--8-0----------8--8-0----------7--7-10-|
D|--8----0----------8----0----------8----0----------8----0----------7-----10-| (x2)

Chorus
Guitar 2

D A# A C
Even if I say, it'll be alright,
D A# A C
Still I hear you say, you want to end your life.
D A# A C
Now and again we try, to just stay alive,
A# D A C
Maybe we'll turn it around, 'cause it's not too late, It's never too late.

Bridge 1
Guitar 2
A# F C
The world, we knew, won't come back,
A# F C
The time, we lost, can't get it back,
A# F C A# A C
The life, we had, won't be, because I can't.

Bridge 2
Guitar 1

E|-----------------------------------------|
B|-----------------------------------------|
G|-----------------------------------------|
D|----10--12---10--12---10--12---10--12-10-|
A|---8--------8--------8--------8-------10-|
D|--8---0----8---0----8---0----8---0----10-|

Chorus
Guitar 2

D A# A C
Even if I say, it'll be alright,
D A# A C
Still I hear you say, you want to end your life.
D A# A C
Now and again we try, to just stay alive,
A# D A C
Maybe we'll turn it around, 'cause it's not too late, It's never too late.
A# D A C
Maybe we'll turn it around, 'cause it's not too late, It's never too late.
A# D A C
It's never too late, it's not too late, it's never too late.
Guitar Tab Creator is intended to store guitar tab created through the tool. It currently does not support in-line text editing. Any text you place in here will be lost. If you need to comment on your tab, please use the "Tab Notes" section located below.