For Anna

(/) Slide Up  (\) Slide Down  (h) Hammer On  (p) Pull Off  (b) Bend (r) Release (v) Vibrato

E|-----8-------------8-------------8-------------8--------
B|--------8-------------8-------------8-------------8-----
G|--8--------8----8--------8----8--------8----8--------8--
D|--------------------------------------------------------
A|--------------------------------------------------------
E|--------------------------------------------------------



E|-----11-------------11-------------11-------------11--------
B|---------8--------------8--------------8--------------8-----
G|--8---------8----8---------8----8---------8----8---------8--
D|------------------------------------------------------------
A|------------------------------------------------------------
E|------------------------------------------------------------



E|-----11--------------11--------------11--------------11---------
B|---------11--------------11--------------11--------------11-----
G|--8----------8----8----------8----8----------8----8----------8--
D|----------------------------------------------------------------
A|----------------------------------------------------------------
E|----------------------------------------------------------------



E|---------------------
B|------10-------------
G|----------11---------
D|--------------11-----
A|---------------------
E|--10-----------------



E|--2--
B|--2--
G|--2--
D|--0--
A|-----
E|-----
http://www.guitartabcreator.com
Guitar Tab Creator is intended to store guitar tab created through the tool. It currently does not support in-line text editing. Any text you place in here will be lost. If you need to comment on your tab, please use the "Tab Notes" section located below.