The Last of Us OST - Main Menu Theme

(/) Slide Up  (\) Slide Down  (h) Hammer On  (p) Pull Off  (b) Bend (r) Release (v) Vibrato
E|--0--0h3--2-------0--0h3--2-------0--3-------------0--3-----------------------------------
B|-------------0---------------3------------------------------------------------------------
G|------------------------------------------------------------------------------------------
D|----------------------------------------------2----------------2-------1----2----------2--
A|-------------------------------------3-----3----------------3-------2---------------2-----
E|----------------------------------------3----------------3-----------------------0--------



E|------------------------------------------------------------------------------------------
B|------------------------------------------------------------------------------------------
G|--------4----5\4--2----4\2--0-------------------------------------------------------------
D|-----2---------------------------4h5p4--2-------2----2-------2----2-------2----1----------
A|--2------------------------------------------3------------5------------2------------------
E|------------------------------------------------------------------------------------------



E|----------------------------------------
B|----------------------------------------
G|--4\2-----2---------------0-------------
D|---------------4-------2-------------2--
A|--------------------2-------------2-----
E|-------1-----------------------0--------
http://www.guitartabcreator.com
Guitar Tab Creator is intended to store guitar tab created through the tool. It currently does not support in-line text editing. Any text you place in here will be lost. If you need to comment on your tab, please use the "Tab Notes" section located below.