The Last of Us OST - The Choice

(/) Slide Up  (\) Slide Down  (h) Hammer On  (p) Pull Off  (b) Bend (r) Release (v) Vibrato

E|-----------------------------------------------------------------------------------------
B|-----------------------------------------------------------------------------------------
G|-----0---------------------0-----------------------------------0-------------------------
D|-------------2-----4---------------2-----4-------0-----2-------------2-----4-------------
A|----------3-----5---------------3-----5-------2-----3-------------3-----5----------------
E|--0---------------------0-----------------------------------0----------------------------



E|-----------------------------------------------------------------------------------------------
B|-----------------------------------------------------------------------------------------------
G|-----0---------------------0---------------------------------------------------1----2--4-------
D|-------------2-----4---------------2-----4-------0-----2----------2---------2------------------
A|----------3-----5---------------3-----5-------2-----3----------2---------2---------------------
E|--0---------------------0-----------------------------------0----------------------------------



E|-----------------------------------------------------------------------------------------------
B|-----------------------------------------------------------------------------------------------
G|--------------------------1----------1----2--2/4-----------------------------------------4-----
D|--------2----2/4-------2----------2-----------------------2----2/4----------2---------4--------
A|-----2--------------2----------2-----------------------2-----------------2-------3/5-----------
E|--0-------------------------------------------------0-----------------0------------------------



E|-------------------------------------------------------------------------------------------
B|-------------------------------------------------------------------------------------------
G|-------------2----2----------1-------1---------------------0-------------------------------
D|----------2---------------2-----2-------2--------1-----------------2-----4-----------------
A|--5----3---------------2----------------------2-----------------3-----5--------------------
E|-------------------------------------------0------------0----------------------------------



E|-------------------------------------------------------------------------------------------
B|-------------------------------------------------------------------------------------------
G|-----0---------------------0---------------------------------------------------------------
D|-------------2-----4---------------2-----4-------0----------2------------------------------
A|----------3-----5---------------3-----5-------2----------2---------------------------------
E|--0---------------------0-----------------------------0------------------------------------
http://www.guitartabcreator.com
Guitar Tab Creator is intended to store guitar tab created through the tool. It currently does not support in-line text editing. Any text you place in here will be lost. If you need to comment on your tab, please use the "Tab Notes" section located below.