sin1

(/) Slide Up  (\) Slide Down  (h) Hammer On  (p) Pull Off  (b) Bend (r) Release (v) Vibrato

E|---------------------------------------------------------------------------------7---
B|-------------------------------------------------------------------------7-7-8-8-----
G|-------------11-11-------7-7-------------------------------------6-6-7-7-------------
D|-11-11-12-12-------12-12-----9-9-7-7-9-9-----9-9-------------9-9---------------------
A|-----------------------------------------5-5-----9-9-----9-9-------------------------
E|-----------------------------------------------------7-7-----------------------------



E|-7-7-----10-10-6-6-----9-9-7-7-----10-10-7-7-----10-10-6-6-----9-9-6-6-----9-9-6-7-
B|-----8-8-----------7-7---------8-8-----------8-8-----------7-7---------7-7---------
G|-----------------------------------------------------------------------------------
D|-----------------------------------------------------------------------------------
A|-----------------------------------------------------------------------------------
E|-----------------------------------------------------------------------------------



E|-6-----6-----7-----7---------9-----9-----10-----9-7-
B|---7-----7-----8-----8-----8-----8-----8------8---7-
G|-----6-----6-----7-----7-7-----7-----7------7-----7-
D|----------------------------------------------------
A|----------------------------------------------------
E|----------------------------------------------------



E|-6-6-7-7-9-9-10-10-6-6-7-7-9-9-10-10-10-10-0-9-0-7-0-6-0-10-0-9-0-7-0-6-0-10-0-9-0-7-0-6-
B|-----------------------------------------------------------------------------------------
G|-----------------------------------------------------------------------------------------
D|-----------------------------------------------------------------------------------------
A|-----------------------------------------------------------------------------------------
E|-----------------------------------------------------------------------------------------



E|-----------7---5---5---5---5---7---7---7---7---------------------------------
B|-7h8p7-----7---------------------------------8---8---8---8---7---7---7---7---
G|-------7p6-7h7---7---7---7---6---6---6---6---------------------------------x-
D|-----------------------------------------------------------------------------
A|-----------------------------------------------x---x---x---x---x---x---x---x-
E|-----------------------------------------------x---x---x---x---x---x---x---x-



E|-----------------------------------------------------
B|-----------------------------------------------------
G|-7---7---7---7---7-6---6---6---6---6---6---6---6---7h
D|-----------------------------------------------------
A|---------------------x---x---x---x-------------------
E|---7---7---7---7-----x---x---x---x---5---5---5---5---



E|---------------------------------------------------------------------------------------
B|---------------------------------------------------------------------------------------
G|----7----7----7----7---7---7---7---7---7---7---7---6---6---6---6---6---6---6---6---6-7h
D|---------------------------------------------------------------------------------------
A|-----------------------------------------------------x---x---x---x---------------------
E|-10---10---10---10---9---9---9---7---7---7---7---7---x---x---x---x---5---5---5---5-----



E|--------------
B|--------------
G|--------------
D|----------5-5-
A|----------5-5-
E|-5-7-9-10\3-5h



E|-------------------------------------------------------------------------
B|-------------------------------------------------------------------------
G|-------------------------------------------------------------------------
D|-------------------------------------------------------------------------
A|-2-2-2-2-2-2-2-2-2-0-0-0-0-0-0-0-0-0-5-5-5-5-5-5-5-5-5-4-4-4-4-4-4-4-4-4-
E|-------------------------------------------------------------------------



E|-------------------------------------------------------------------------
B|-------------------------------------------------------------------------
G|-------------------------------------------------------------------------
D|-------------------------------------------------------------------------
A|-2-2-2-2-2-2-2-2-2-0-0-0-0-0-0-0-0-0-5-5-5-5-5-5-5-5-5-4-4-4-4-4-4-4-4-4-
E|-------------------------------------------------------------------------



E|-------------------------
B|-------------------------
G|-------------------------
D|-7p5-4---4-------------7-
A|-5---5-4-2-2-x-x-2-x-x-5p
E|-----------0-2-3-0-2-3---



E|--------------
B|--------------
G|--------------
D|--5--4-----4--
A|-----5--4--2--
E|--------------
http://www.guitartabcreator.com
Guitar Tab Creator is intended to store guitar tab created through the tool. It currently does not support in-line text editing. Any text you place in here will be lost. If you need to comment on your tab, please use the "Tab Notes" section located below.