With Ears To See And Eyes To Hear Acoustic

(/) Slide Up  (\) Slide Down  (h) Hammer On  (p) Pull Off  (b) Bend (r) Release (v) Vibrato

E|----0----0----0----0----
B|----0----0----0----0----
G|----6----2----6----2----
D|----6----2----6----2----
A|----4----0----4----0----
E|------------------------



E|--0--0--0--0--0--0--0--0--0--0--0--0--0--0--0--0--
B|--0--0--0--0--0--0--0--0--0--0--0--0--0--0--0--0--
G|--6--6--6--6--2--2--2--2--6--6--6--6--2--2--2--2--
D|--6--6--6--6--2--2--2--2--6--6--6--6--2--2--2--2--
A|--4--4--4--4--0--0--0--0--4--4--4--4--0--0--0--0--
E|--------------------------------------------------



E|----0----0----0----0----
B|----0----0----0----0----
G|----6----2----6----2----
D|----6----2----6----2----
A|----4----0----4----0----
E|------------------------



E|----0----0----0----0----
B|----0----0----0----0----
G|----6----2----6----2----
D|----6----2----6----2----
A|----4----0----4----0----
E|------------------------



E|----0----0----0----0----0----
B|----0----0----0----0----0----
G|----6----2----1----4----5----
D|----6----2----2----4----5----
A|----4----0----2----2----3----
E|--------------0--------------



E|----0----0----0----0----0----
B|----0----0----0----0----0----
G|----6----2----1----4----5----
D|----6----2----2----4----5----
A|----4----0----2----2----3----
E|--------------0--------------



E|----
B|----
G|----
D|----
A|----
E|----



E|----0----0----0----0----
B|----0----0----0----0----
G|----6----6----6----6----
D|----6----6---------6----
A|----4----4----4----4----
E|------------------------



E|----0----0----0----0----
B|----0----0----0----0----
G|----1----4----6----2----
D|----2----4----6----2----
A|----2----2----4----0----
E|----0-------------------
http://www.guitartabcreator.com
Guitar Tab Creator is intended to store guitar tab created through the tool. It currently does not support in-line text editing. Any text you place in here will be lost. If you need to comment on your tab, please use the "Tab Notes" section located below.