marquee monn

(/) Slide Up  (\) Slide Down  (h) Hammer On  (p) Pull Off  (b) Bend (r) Release (v) Vibrato
E|--------------------------------------------------------------------------------------------------
B|------------------------------------------------------------------------10--10--10--10--10--7-----
G|--------------------------------------------------------------------------------------------------
D|--------------------------------------------------------------------------------------------------
A|--5--5--5--5--5--5--5--5--5--5--5--5----5--5--5--5--5--5--5--5--5--5------------------------------
E|--------------------------------------------------------------------------------------------------



E|----------------------------------------------------------------------------------------------------
B|----------------------10--10--10--10--10--10--10--10--7---------------------------------------------
G|--9--9--7--9--9b11---------------------------------------9--9b11------------------------------------
D|-------------------------------------------------------------------------5--5--4-----5--4-----5--4--
A|--------------------------------------------------------------------5/7-----------7--------7--------
E|----------------------------------------------------------------------------------------------------



E|-------------------------------------------------------------------------------------------------
B|-------------------------------------------------------------------------------------------------
G|----------------------------------------------------------------------------------4--------------
D|-----5--4-----5--4-----5--4--5--5/7--5--4-----5--4-----5--4-----5--4-----4--5--7-----7--5--4--5--
A|--7--------7--------7----------------------7--------7--------7--------7--------------------------
E|-------------------------------------------------------------------------------------------------



E|--------------------------------------------------------------------------------------------
B|---------------------------------------------------------------------------------13--12-----
G|----------------------------4--5-----5--7--------7--9-----11--9------12--11--14-------------
D|-------------------4-----2--------5--------7--9--------7---------10-------------------------
A|--2--3--5----2--3-----5---------------------------------------------------------------------
E|--------------------------------------------------------------------------------------------



E|--
B|--
G|--
D|--
A|--
E|--
http://www.guitartabcreator.com
Guitar Tab Creator is intended to store guitar tab created through the tool. It currently does not support in-line text editing. Any text you place in here will be lost. If you need to comment on your tab, please use the "Tab Notes" section located below.