marque moon (alternate version) solo

(/) Slide Up  (\) Slide Down  (h) Hammer On  (p) Pull Off  (b) Bend (r) Release (v) Vibrato

E|---------------------------------------------------------------------------------------
B|---------------------------------------------------------------------------------------
G|---------------------------------------------------------------------------------------
D|-----5--4-----------5--4-----------5--4-------5--4-----------4/5-----5--4--------------
A|--5--------5-----5--------5-----5----------5--------7--5----------5--------7--5-----5--
E|--------------7--------------7----------------------------7----------------------7-----



E|-----------------------------------------------------------------
B|-----------------------------------------------------------------
G|--7b9--9--9--7--7--9-----9----9--9--9b11--11r9--9p7-----7--7-----
D|----------------------7------------------------------7--------7--
A|-----------------------------------------------------------------
E|-----------------------------------------------------------------
http://www.guitartabcreator.com
Guitar Tab Creator is intended to store guitar tab created through the tool. It currently does not support in-line text editing. Any text you place in here will be lost. If you need to comment on your tab, please use the "Tab Notes" section located below.