Is Your Love In Vain - Capo 2nd fret

(/) Slide Up  (\) Slide Down  (h) Hammer On  (p) Pull Off  (b) Bend (r) Release (v) Vibrato

E|-------------------------------------------------------------------------3-----------------0--
B|--1-----------0-----1-----------1-----------1--1--0--1--3h1-----------0-----0-----------0-----
G|--0--0-----0--0--0--2--2-----2--0--0-----0--2----------------2-----2--0--------0-----0--------
D|--------2-----------2-----2-----------2-----3-------------------3-----------------0-----------
A|--3-----------2-----0-----------------------------------0-------------------------------------
E|--------------------------------3-------------------------------------3-----------------------



E|----------------------------------------------------------------------3-----3--1--0--------------
B|--1-----------0-----1-----------1-----------1--1--0--1--3h1--------------0-----------3--1--0-----
G|--0--0-----0--0--0--2--2-----2--0--0-----0--2----------------2-----2-----0--------------------0--
D|--------2-----------2-----2-----------2-----3-------------------3--------------------0-----------
A|--3-----------2-----0-----------------------------------0----------------------------------------
E|--------------------------------3----------------------------------------3-----------------------



E|-----------------3--------------------------------------------------------------3h5h3h5/7\0--
B|--1-----------0-----0-----1--1--------1-----------1--1h0h1--3h1--------------0---------------
G|--2--2-----2--0--------0--2-----2-----0--0-----0--2--------------2-----2-----0---------------
D|--2-----2-----------------3--------0--------2-----3-----------------3------------------------
A|--0-----------------------------------3-----------------------------------0------------------
E|--------------3--------------------------------------------------------------3---------------



E|------------------------------------------------------------------------3--------------------
B|--1--------0-----------1--0h1h0-----------1-----------1--------------0-----0-----1--1--0--1--
G|--0-----0--0--0-----0--2---------2-----2--0--0-----0--2--2-----2--0--0--------0--0-----------
D|-----2-----------0-----2------------2-----------2-----3-----3--------------------2-----------
A|--3--------2-----------0---------------------------------------------2-----------3-----------
E|------------------------------------------3--------------------------3-----------------------



E|-----------------3--------------------------------------------3--------0-----------1-----------
B|--1-----------0-----0-----1-----------1-----------1--------0-----0-----1--1--0--1--1-----------
G|--2--2-----0--0--------0--0--0-----0--2--2-----2--2--2-----0--------0--0-----------2--2-----2--
D|--3-----3-----------------2-----2-----2-----2-----3-----2--------------2-----------3-----3-----
A|--------------------------3-----------0--------------------------------3-----------------------
E|--------------3--------------------------------------------3-----------------------------------



E|-------------------------------------------------------------3/5/7------------
B|--3--1--0-----0--1-------------1-----------1--1h3h1h0---------------8h10p8p0--
G|-----------0--------0-------0--2--2-----2--2-----------2/4\2h-----------------
D|-----------------------0h2-----2-----2-----3----------------------------------
A|--2-----------3----------------0----------------------------------------------
E|--3----------------------------------------------------------3-5-7------------



E|--------------------------------------------------------------3--------------------------------
B|--1-----------0-----------1-----------1--------1-----------0-----0--------1--0--1--1-----------
G|--0--0-----0--0--0-----0--2--2-----2--0--0-----2--2--0-----0--------0-----------------0-----0--
D|--------2-----------0-----2-----2-----------2--3--------0--------------2-----------2-----2-----
A|--3-----------2-----------0--------------------------------------------3-----------3-----------
E|--------------------------------------3--------------------3-----------------------------------



E|---------------------------------------------------------------3--1--0--------------
B|--0-----------1-----------1--------1--1h3p1--1--1-----------------------3--1--0-----
G|--0--0-----0--2--2-----2--0--0-----2---------------2--------------------------------
D|--------0-----2-----2-----------2--3------------------3-----------------------------
A|--2-----------0------------------------------------------0--------------------------
E|--------------------------3---------------------------------3-----------------------



E|-----------------3----------------------------------------------------------------3h5p3--5/7--0--
B|--1-----------0-----0-----1-----------1-----------0-----------1--1h3p1---------0-----------------
G|--2--2-----2--0--------0--2--2-----2-----2-----2-----0--0--0--2---------2/4\2--0-----------------
D|--2-----2-----------------3-----3-----2-----3-----2-----------3----------------------------------
A|--0-----------------------------------3-----------3----------------------------------------------
E|--------------3----------------------------------------------------------------3-----------------



E|-----------------------------------------------------------3--------------------
B|--1-----------0-----------1-----------1--------1--------0-----0-----1--1--0--1--
G|-----0-----0-----0-----0--2--2-----2--0--0--0--2--0-----0--------0--------------
D|--2-----2-----------0-----2-----2-----2--------3-----0--------------2-----------
A|--3-----------2-----------0-----------------------------------------3-----------
E|--------------------------------------3-----------------3-----------------------



E|---------------------------------------------------------------------------------3/5--0--
B|--1--1--3--1--0--0--3--1--0--1--0h1--1--1-----------1--1--0--1--3h1--0--0--1--3----------
G|--0--------------0-----------2-------------0-----0--2-------------------0----------------
D|--2--------------------------2----------2-----2-----3-----------0------------------------
A|--3--------------2-----------0----------3------------------------------------------------
E|----------------------------------------3-------------------------------3----------------



E|-------------------------------------------------------------------------3--1--0--------------
B|--1--1--3--1--0--3--1--0--1--0--1--1--1-----------1--1--0--1--3h1--0--0-----------0--3--1--0--
G|--0-----------0-----------2-----------0--0-----0--2-------------------0-----------------------
D|--2-----------------------2-----------2-----2-----3-----------0-------------------------------
A|--3-----------2-----------0-----------3-------------------------------------------------------
E|--------------------------------------3-------------------------------3-----------------------



E|-----------------3----------------------------------------------------3h5--3h5/7--0--
B|--1-----------0-----0-----1-----------1-----------1--1h3p1---------------------------
G|--2--2-----2--0--------0--2--2-----2--0--0--0--0--2---------2/4\2--------------------
D|--2-----2-----------------3-----3-----2-----------3----------------------------------
A|--0-----------------------------------3----------------------------------------------
E|--------------3----------------------------------------------------3-----------------



E|----------------------------------------------------------------------------------
B|--1--------0-----------1-----------1----------1-----------0--1--3--0--1--1--0--1--
G|--0-----0--0--0-----0--2--2-----2--0-------0--2--2--0-----0-----------0-----------
D|--2--2-----------0-----2-----2-----2--0h2-----3--------0--0-----------2-----------
A|--3--------2-----------------------3----------------------------------3-----------
E|-----------------------------------3----------------------3-----------------------
http://www.guitartabcreator.com
Guitar Tab Creator is intended to store guitar tab created through the tool. It currently does not support in-line text editing. Any text you place in here will be lost. If you need to comment on your tab, please use the "Tab Notes" section located below.