New fingerpicking pattern

(/) Slide Up  (\) Slide Down  (h) Hammer On  (p) Pull Off  (b) Bend (r) Release (v) Vibrato


E|-----------------------------------------------------------------------------------------------
B|-----------------------------------------------------------------------------------------------
G|--------7-----------7-----------7-----------7-----------5-----------5-----------5-----------5--
D|-----8-----8-----8-----8-----8-----8-----8-----8-----4-----4-----4-----4-----4-----4-----4-----
A|--6-----------6-----------6-----------6-----------5-----------5-----------5-----------5--------
E|-----------------------------------------------------------------------------------------------



E|--------------------------------------------------------------------------|-----------------------
B|--------------------------------------------------------------------------|-----------------------
G|--------0-----------0-----------0-----------0-----------0-----------0-----|--------0-----------0--
D|-----0-----0-----0-----0-----0-----0-----0-----0-----0-----0-----0-----0--|-----0-----0-----0-----
A|--------------------------0-----------0-----------3-----------2-----------|-----------------------
E|--3-----------3-----------------------------------------------------------|--3-----------3--------



E|---------------------------------------------------------------------------------------------3--
B|---------------------------------------------------------------------------------------------0--
G|-----------0-----------0-----------0-----------0-----------0-----------0-----------0---------0--
D|--0-----0-----0-----0-----0-----0-----0-----0-----0-----0-----0-----0-----0-----0-----0------0--
A|-----------------------------0-----------0-----------3-----------2---------------------------2--
E|-----3-----------3-----------------------------------------------------------3---------------3--
http://www.guitartabcreator.com
Guitar Tab Creator is intended to store guitar tab created through the tool. It currently does not support in-line text editing. Any text you place in here will be lost. If you need to comment on your tab, please use the "Tab Notes" section located below.