:52 Barnacle

(/) Slide Up  (\) Slide Down  (h) Hammer On  (p) Pull Off  (b) Bend (r) Release (v) Vibrato

E|------------------------------------------------------------------
B|------------------------------------------------------------------
G|----------10------10--12--10------10--14--12------12--------------
D|------12------12--------------12--------------15------15--14--15--
A|--12--------------------------------------------------------------
E|------------------------------------------------------------------



E|--------------------------------------------------------------
B|----------------------------------15------15--17------17--18--
G|----------------------14------14------14----------15----------
D|------12--15--12--15------15----------------------------------
A|--12----------------------------------------------------------
E|--------------------------------------------------------------



E|--17--------------------------------------------------------------
B|------18----------------------------------------------------------
G|----------19--------------------------14--12------12--------------
D|------------------15--17--15------15----------15------15--14--15--
A|--------------17--------------17----------------------------------
E|------------------------------------------------------------------



E|----------------------------------------------------------18--
B|----------------------------------15------15--17------17------
G|----------------------14------14------14----------15----------
D|------12--15--12--15------15----------------------------------
A|--12----------------------------------------------------------
E|--------------------------------------------------------------
http://www.guitartabcreator.com
Guitar Tab Creator is intended to store guitar tab created through the tool. It currently does not support in-line text editing. Any text you place in here will be lost. If you need to comment on your tab, please use the "Tab Notes" section located below.