Sublime-pawn shop

(/) Slide Up  (\) Slide Down  (h) Hammer On  (p) Pull Off  (b) Bend (r) Release (v) Vibrato

E|--------------
B|--------------
G|--------------
D|-------5------
A|--5h7-----7v--
E|--------------



E|--------------------------
B|--------------------------
G|--------------------7-----
D|--7\9--7------7--9--------
A|----------10--------------
E|--------------------------



E|------------------------------------
B|------------------------------------
G|------------------------7-----------
D|--7\9-------------7--9-----9--7--9--
A|-------10--7--10--------------------
E|------------------------------------



E|-------------------------------------------------------------------------------------------
B|---------------------------------------------8-----------------8---------------------------
G|---------------------------7-----------7--9-----7h9v--7--7--9-----7h9--7h9--7-----------7--
D|--7\9--7-------------7--9-----9--7--9------------------------------------------9--7--9-----
A|----------10--7--10------------------------------------------------------------------------
E|-------------------------------------------------------------------------------------------



E|--------------
B|--------8-----
G|--7--9-----9--
D|--------------
A|--------------
E|--------------



E|--7-------------7--10--7-------------------7--10--7------7--10--12--15--12v--
B|-----10--8--10------------10--8-----8--10------------10----------------------
G|---------------------------------9-------------------------------------------
D|-----------------------------------------------------------------------------
A|-----------------------------------------------------------------------------
E|-----------------------------------------------------------------------------



E|--10--10--12--15--12--12--10-------------------------------
B|------------------------------12--10h12--------------------
G|-----------------------------------------12h14--10h12------
D|-------------------------------------------------------12h14
A|-----------------------------------------------------------
E|-----------------------------------------------------------



E|------------------------------------
B|------------------------------------
G|------------------------------------
D|-------5--5-------5--5--------------
A|--5h7--------5h7--------7--5-----5--
E|------------------------------7-----



E|--7--7--7--7-----
B|--8--8--7--7-----
G|--9--9--7--7-----
D|--9--9--9--9-----
A|--7--7--9--9-----
E|--------7--7-----
http://www.guitartabcreator.com
Guitar Tab Creator is intended to store guitar tab created through the tool. It currently does not support in-line text editing. Any text you place in here will be lost. If you need to comment on your tab, please use the "Tab Notes" section located below.