Sublime-badfish

(/) Slide Up  (\) Slide Down  (h) Hammer On  (p) Pull Off  (b) Bend (r) Release (v) Vibrato
E|--0--2--3--5------------------5--
B|--2--3--3--5------------------5--
G|--2--4--4--6-----5b7-----5b7--6--
D|--2--4--5--7--7-------7-------7--
A|--0--2--5--7------------------7--
E|--------3--5------------------5--



E|--5--2--3--5--
B|--5--3--3--5--
G|--6--4--4--6--
D|--7--4--5--7--
A|--7--2--5--7--
E|--5-----3--5--



E|-----3--5-----
B|-----3--5-----
G|--7--4--6--7--
D|--7--5--7--7--
A|--5--5--7--5--
E|-----3--5-----



E|--5-----5-----5--------
B|--5-----5-----5--------
G|--6--7--6--7--6--7--9--
D|--7--7--7--7--7--7--9--
A|--7--5--7--5--7--5--7--
E|--5-----5-----5--------



E|--0--2--3--5--
B|--2--3--3--5--
G|--2--4--4--6--
D|--2--4--5--7--
A|--0--2--5--7--
E|--------3--5--



E|--------------------------------------------------------
B|--------------------------------------------------------
G|--4h6v--4h6v--4b5--------2--4--1h2p1h2p1----------------
D|-------------------2hh4-------------------2-------------
A|---------------------------------------------2--0--2\4--
E|--------------------------------------------------------



E|---------------------------5--2------------------
B|---------------------------------2--0-----0------
G|-----------------2p1-------------------2-----2v--
D|-----2h4--4v--2-------2\4------------------------
A|--4----------------------------------------------
E|-------------------------------------------------
http://www.guitartabcreator.com
Guitar Tab Creator is intended to store guitar tab created through the tool. It currently does not support in-line text editing. Any text you place in here will be lost. If you need to comment on your tab, please use the "Tab Notes" section located below.