JoyDivisionDISORDER

(/) Slide Up  (\) Slide Down  (h) Hammer On  (p) Pull Off  (b) Bend (r) Release (v) Vibrato


E|-----------------------|--------------------|-----------------------|--------------------
B|-----------------------|--------------------|-----------------------|--------------------
G|--8--8--8--8--8--8--8--|--------------------|-----------------------|--------------------
D|-----------------------|--5--5--5--5--5--5--|-----------------------|--5--5--5--5--5--5--
A|-----------------------|--------------------|-----------------------|--------------------
E|-----------------------|--------------------|--6--6--6--6--6--6--6--|--------------------



E|--------------------------------------------
B|--------------------------------------------
G|--8--8--8--8--8--8--8--7--8--7--------------
D|--------------------------------5--5--5--5--
A|--------------------------------------------
E|--------------------------------------------



E|-----------------------|--------------------|--------------------------------------------
B|-----------------------|--------------------|--------------------------------------------
G|-----------------------|--------------------|--8--8--8--8--8--8--8--7--8--7--------------
D|-----------------------|--5--5--5--5--5--5--|--------------------------------5--5--5--5--
A|-----------------------|--------------------|--------------------------------------------
E|--6--6--6--6--6--6--6--|--------------------|--------------------------------------------



E|--------------------------------------------|--------------------------------------------
B|--------------------------------------------|--------------------------------------------
G|--------------------------------------------|--8--8--8--8--8--8--8--7--8--7--------------
D|-----------------------------------5--5--5--|--------------------------------5--5--5--5--
A|-----------------------6--------------------|--------------------------------------------
E|--6--6--6--6--6--6--6-----5--4--0-----------|--------------------------------------------
http://www.guitartabcreator.com
Guitar Tab Creator is intended to store guitar tab created through the tool. It currently does not support in-line text editing. Any text you place in here will be lost. If you need to comment on your tab, please use the "Tab Notes" section located below.