JDCeremony

(/) Slide Up  (\) Slide Down  (h) Hammer On  (p) Pull Off  (b) Bend (r) Release (v) Vibrato


E|-----------------------------------------------------
B|-----------------------------------------------------
G|------17------17------17------17------17------17-----
D|--15------15------15------15------15------15------0--
A|-----------------------------------------------------
E|-----------------------------------------------------



E|-----------------------------------------------------
B|-----------------------------------------------------
G|------17------17------17------17------17------17-----
D|--------------------------------------------------0--
A|--15------15------15------15------15------15---------
E|-----------------------------------------------------



E|------------------|--|--------------
B|------------------|--|--------------
G|------------------|--|--------------
D|------------------|--|--------------
A|------------------|--|--------------
E|--13--13--13--13--|--|--8--8--8--8--



E|------------------------------------------------------
B|------------------------------------------------------
G|------17------17------17------17------17------17------
D|--15------15------15------15------15------15------15--
A|------------------------------------------------------
E|------------------------------------------------------



E|------------------------------------------------------
B|------------------------------------------------------
G|------12------12------12------12------12------12------
D|--10------10------10------10------10------10------10--
A|------------------------------------------------------
E|------------------------------------------------------
http://www.guitartabcreator.com
Guitar Tab Creator is intended to store guitar tab created through the tool. It currently does not support in-line text editing. Any text you place in here will be lost. If you need to comment on your tab, please use the "Tab Notes" section located below.