holyhour

(/) Slide Up  (\) Slide Down  (h) Hammer On  (p) Pull Off  (b) Bend (r) Release (v) Vibrato


E|--------------------------------------------
B|--------------------------------------------
G|-----------3--3--2--2-----------------------
D|--------------------------------3--3--2--2--
A|--------0-----------------------------------
E|--3--3-----------------3--3--0--------------



E|-----------------------
B|-----------------------
G|-----------------------
D|-----------3--3--2--2--
A|-----------------------
E|--3--3--1--------------
http://www.guitartabcreator.com
Guitar Tab Creator is intended to store guitar tab created through the tool. It currently does not support in-line text editing. Any text you place in here will be lost. If you need to comment on your tab, please use the "Tab Notes" section located below.