AFORST

(/) Slide Up  (\) Slide Down  (h) Hammer On  (p) Pull Off  (b) Bend (r) Release (v) Vibrato


E|--------------------|--------------------|--------------------|--------------------|--
B|--------------------|--------------------|--------------------|--------------------|--
G|--------------------|--------------------|--------------------|--------------------|--
D|--------------------|--------------------|--------------------|--------------------|--
A|--------------------|-----3--3-----3--3--|--------------------|--0--5--5--0--5--5--|--
E|--3--5--5--3--5--5--|--5--------5--------|--0--1--1--0--1--1--|--------------------|--



E|-----------------|--------------------------|--------------------|--------------------
B|-----------------|--------------------------|--------------------|--------------------
G|-----------------|--------------------------|--------------------|--------------------
D|-----------------|--------------------------|--------------------|--------------------
A|--0--5--5--0--5--|--------------------------|-----3--3-----3--3--|--------------------
E|-----------------|--0--3--4--5--5--3--5--5--|--5--------5--------|--0--1--1--0--1--1--
http://www.guitartabcreator.com
Guitar Tab Creator is intended to store guitar tab created through the tool. It currently does not support in-line text editing. Any text you place in here will be lost. If you need to comment on your tab, please use the "Tab Notes" section located below.