Untitled Song

Intro:

G D Bm A
E|----------------2---------------------
B|--------3-------3-------2h3--------2--
G|----4h6---6---2-------4-----4------2--
D|---------------------------------2----
A|--------------------2----------0------
D|--5---------0-------------------------


G D Bm Asus4
E|----------------2---------------------
B|--------3-------3-------3p2--------3--
G|----4h6---6---2-------4-----4------2--
D|---------------------------------2----
A|--------------------2----------0------
D|--5---------0-------------------------
X1
Verse:
-Guitar 1:
G D Bm A G D Bm Asus4
E|--x--x--2--2--2--2--0--0--x--x--2--2--2--2--0--0--
B|--3--3--3--3--3--3--2--2--3--3--3--3--3--3--3--3--
G|--4--4--2--2--4--4--2--2--4--4--2--2--4--4--2--2--
D|--0--0--0--0--4--4--2--2--0--0--0--0--4--4--2--2--
A|--x--x--0--0--2--2--0--0--x--x--0--0--2--2--0--0--
D|--5--5--0--0--2--2--0--0--5--5--0--0--2--2--0--0--
X2
-Guitar 2:
G D Bm Asus4
E|----------------2---------------------
B|--------3-------3-------2h3--------3--
G|----4h6---6---2-------4-----4------2--
D|---------------------------------2----
A|--------------------2----------0------
D|--5---------0-------------------------


G D Bm A
E|----------------2---------------------
B|--------3-------3-------3p2--------2--
G|----4h6---6---2-------4-----4------2--
D|---------------------------------2----
A|--------------------2----------0------
D|--5---------0-------------------------
X2
Chorus:

D F#m Bm G
E|--2--2--2--2--x--x--x--x--x--x--x--x--x--x--x--x--
B|--3--3--3--3--2--2--2--2--7--7--7--7--3--3--3--3--
G|--2--2--2--2--2--2--2--2--4--4--4--4--4--4--4--4--
D|--0--0--0--0--0--0--0--0--0--0--0--0--0--0--0--0--
A|--0--0--0--0--x--x--x--x--x--x--x--x--x--x--x--x--
D|--0--0--0--0--4--4--4--4--9--9--9--9--5--5--5--5--
X3

Verse

Chorus

Bridge:

G5 D E5 D5 X3 E5 D5 X2
E|--x---x---x---x---x---x---x---x --x---x---x---x--
B|--x---x---x---x---x---x---x---x --x---x---x---x--
G|--12--12--12--12--9---9---7---7 --9---9---7---7--
D|--12--12--12--12--9---9---7---7 --9---9---7---7--
A|--10--10--9---9---7---7---5---5 --7---7---5---5--
D|--0---0---0---0---0---0---0---0 --0---0---0---0--

Chorus

Outro=Intro

End on D
Guitar Tab Creator is intended to store guitar tab created through the tool. It currently does not support in-line text editing. Any text you place in here will be lost. If you need to comment on your tab, please use the "Tab Notes" section located below.