if i dont mind

(/) Slide Up  (\) Slide Down  (h) Hammer On  (p) Pull Off  (b) Bend (r) Release (v) Vibrato
E|-----------------------------------------------------------------------------------------------
B|-----------------------------------------------------------------------------------------------
G|-----------------------------------------------------------------------------------------------
D|-----------------------------------------------------------------------------------------------
A|--9--9----------------------------9--9----------------------------9--9-------------------------
E|--------9--9--10--10--5--5--7--7--------9--9--10--10--5--5--7--7--------9--9--10--10--5--5-----



E|-----------------------------------------------------------------------------------------------
B|-----------------------------------------------------------------------------------------------
G|-----------------------------------------------------------------------------------------------
D|-----------------------------------------------------------------------------------------------
A|--9--9----------------------------9--9----------------------------9--9-------------------------
E|--------9--9--10--10--5--5--7--7--------9--9--10--10--5--5--7--7--------9--9--10--10--5--5-----



E|-------------------------------------------------------------------------------------------------
B|-------------------------------------------------------------------------------------------------
G|------11------11------13------13------11------11------13------13------14------14------16---------
D|-------------------------------------------------------------------------------------------------
A|-------------------------------------------------------------------------------------------------
E|--10------10------12------12------10------10------12------12------14------14------16------16-----



E|----------------------------------
B|----------------------------------
G|------14------14------16------16--
D|----------------------------------
A|----------------------------------
E|--14------14------16------16------



E|---------------------------------------------------------------------
B|---------------------------------------------------------------------
G|-------------------------------------------11------------------------
D|---------------------------------------------------------------------
A|--9--9--12--9-----------11-----11------------------------------------
E|---------------9--9--9------9------10--10------10--5--5--5--7--7--7--



E|----------------------------------------------------------
B|----------------------------------------------------------
G|----------------------------------------------------------
D|----------------------------------------------------------
A|--9--9/9--------------------------------------------------
E|----------9--9--9--10--10--10--10--10--12--5--5--7--7-----



E|--
B|--
G|--
D|--
A|--
E|--
http://www.guitartabcreator.com
Guitar Tab Creator is intended to store guitar tab created through the tool. It currently does not support in-line text editing. Any text you place in here will be lost. If you need to comment on your tab, please use the "Tab Notes" section located below.