Every Kind of People

(/) Slide Up  (\) Slide Down  (h) Hammer On  (p) Pull Off  (b) Bend (r) Release (v) Vibrato


E|-----6-----6-----------4-----------
B|-----6-----7-----4-----4-----6-----
G|-----6-----8-----4-----4-----6-----
D|-----4-----8-----4-----6-----6-----
A|-----4-----6-----2-----6-----4-----
E|-----------------------4-----------



E|-----7-----
B|-----7-----
G|-----8-----
D|-----9-----
A|-----9-----
E|-----7-----
http://www.guitartabcreator.com
Guitar Tab Creator is intended to store guitar tab created through the tool. It currently does not support in-line text editing. Any text you place in here will be lost. If you need to comment on your tab, please use the "Tab Notes" section located below.