Embryonic Gastronomy

(/) Slide Up  (\) Slide Down  (h) Hammer On  (p) Pull Off  (b) Bend (r) Release (v) Vibrato


(0:00-0:11) Riff 1
C|---------------------------------------------------------|
G|---------------------------------------------------------|
C|--2-3-0-2-3-1---2-3-0-2-3-1---2-3-0-2-3-1---2-3-0-2-3-1--|

C|-------------------------------------------------------------------------|
G|-------------------------------------------------------------------------|
C|--2-3-0-1-2-3-2-1---2-3-0-1-2-3-2-1---2-3-0-1-2-3-2-1---2-3-0-1-3-2-1----|

(0:11-0:16) guitar by itself
(0:17-0:37) bass and drums together Riff 2
C|-------------| C|---------------------------------------------------|
G|-------------| G|---------------------------------------------------|
C|--1-2-3-2-1--| C||--2--1--3--2--1--2--3------2--1--3--2--1-2-3-2-1--| repeat 3 times

(0:37-0:40) Riff 3a (0:40-0:46) Riff 3b
C|------------------------------| C|---------------------------------------------------------------
G|------------------------------| G|---------------------------------------------------------------
C|--3-4-0-1-2-1--3-4-0-1-2-1-2--| C|--3-4-0-1-2-1--3-4-0-1-2-1-3\2---3-4-0-1-2-1--3-4-0-1-2-3-2-1--

(0:47-0:56) Riff 4
C|-----------------------------------------------------|
G|-----------------------------------------------------|
C|--2-1-0-3-2-0-2-1-0-3-1-2---2-1-0-3-2-0-2-1-0-3-2-3--| repeat 2 times

(0:57-1:06) Riff 5
C|----------------|
G|----------------|
C|--2-1-0--3-2-0--| repeat 8 times

(1:07-1:10) guitar by itself
(1:11-1:24) Bass and Drums together Riff 6 (1:25-1:31) same riff but slower (played once)
C|--------------------------| C|------------------------------------|
G|--------------------------| G|------------------------------------|
C|--2--1--4--2--3--1--4--3--|repeat 4 times C|--2---1---4---2---3-3---1---4---3---|

(1:31-1:35) guitar by itself
(1:35-1:51) Bass and Drums together Riff 7
C|-----------| C|-------------------|
G|-----------| G|-------------------|
C|--2-3-2-0--| C|--2-3-2-1-2-3-2-0--|repeat twice

C|----------------------------------------------------------------------|
G|----------------------------------------------------------------------|
C|--2-3-2-0-2-3-2-1--2-3-2-0-2-3-2-1--2-3-2-0-2-3-2-1--2-3-2-0-2-3-1----|


(1:52-1:55) guitar by itself Riff 8
(1:56-2:05) Bass and Drums together
C|---------------------------------|
G|---------------------------------|
C|--2--1--3--2-2-2--1--2--3--2--1--|

C|---------------------------------|
G|---------------------------------|
C|--2--1--3--2-2-2--1--2--3--2--3--|

C|---------------------------------|
G|---------------------------------|
C|--2--1--3--2-2-2--1--2--3--2--1--|


Go back and repeat Riff 3a, Riff 3b, Riff 4, and Riff 5 in the same sequence.
But the song ends with Riff 5 with one less note..like this

(2:25-2:51)
C|----------------|
G|----------------|
C|--2-1-0--3-2-0--| repeat 10 times

C|---------------------|
G|---------------------|
C|--2-1-0--3-2-0--2-1--|


END OF THE SONG

http://www.guitartabcreator.com
Guitar Tab Creator is intended to store guitar tab created through the tool. It currently does not support in-line text editing. Any text you place in here will be lost. If you need to comment on your tab, please use the "Tab Notes" section located below.