Nu Acum - Cântec singur

(/) Slide Up  (\) Slide Down  (h) Hammer On  (p) Pull Off  (b) Bend (r) Release (v) Vibrato

E|--5-----0-----------------------------5-----0-----------------------------|--
B|--3--------3-----3--6-----3-----3-----3--------3-----3--6-----3-----3-----|--
G|--4--4--------4--------4-----4-----4--4--4--------4--------4-----4-----4--|--
D|--5-----------------------------------5-----------------------------------|--
A|--------------------------------------------------------------------------|--
E|--------------------------------------------------------------------------|--



E|----5----3----3----5----|----
B|----3----3----5----7----|----
G|----4----4----5----7----|----
D|----5----5----5----7----|----
A|----3----3----3----5----|----
E|----3----3----3----5----|----
http://www.guitartabcreator.com
Guitar Tab Creator is intended to store guitar tab created through the tool. It currently does not support in-line text editing. Any text you place in here will be lost. If you need to comment on your tab, please use the "Tab Notes" section located below.