Matildas vals

(/) Slide Up  (\) Slide Down  (h) Hammer On  (p) Pull Off  (b) Bend (r) Release (v) Vibrato

E|--0--------------0-----0--------------2--0-----------------------------------------------------
B|--------0--1--3-----1-----4--4--0--4--------3--1--0--1-----1--0-----0-----------0--------------
G|-----2--------------------------------------------------2--------------------1-----1--1--2--2--
D|-----------------------------------------------------------------2-----2--2--------------------
A|-----------------------------------------------------------------------------------------------
E|-----------------------------------------------------------------------------------------------



E|-----------0-----------0-----0--------------2--0-----------------------------------------------------
B|--0--1--3--------1--3-----1-----4--4--0--4--------3--1--0--1-----1--0-----0-----------0--------------
G|--------------2-----------------------------------------------2--------------------1-----1--1--2--2--
D|-----------------------------------------------------------------------2-----2--2--------------------
A|-----------------------------------------------------------------------------------------------------
E|-----------------------------------------------------------------------------------------------------



E|--0--2--0-----------------------------------------------------------------0--2--0--------------------
B|-----------2--------2--2--3--3--2--0--------------0--------------0--2--3-----------2--------2--2--3--
G|-----------------2--------------------2--1-----1-----1--1--2--2--------------------------2-----------
D|--------------2-----------------------------2-----------------------------------------2--------------
A|-----------------------------------------------------------------------------------------------------
E|-----------------------------------------------------------------------------------------------------



E|--------------------------------------------
B|--2--3--3--2--0--------------0--------------
G|-----------------2--1-----1-----1--1--2--2--
D|-----------------------2--------------------
A|--------------------------------------------
E|--------------------------------------------
http://www.guitartabcreator.com
Guitar Tab Creator is intended to store guitar tab created through the tool. It currently does not support in-line text editing. Any text you place in here will be lost. If you need to comment on your tab, please use the "Tab Notes" section located below.