andreman theme

(/) Slide Up  (\) Slide Down  (h) Hammer On  (p) Pull Off  (b) Bend (r) Release (v) Vibrato
E|------------------------------------------------------------------------
B|-10/13-13-13-13-11-11-10-8-8-8-8-10-10-11-10-8----------------8/10-11---
G|-----------------------------------------------10-9h10p9----9-----------
D|---------------------------------------------------------10-------------
A|------------------------------------------------------------------------
E|------------------------------------------------------------------------



E|--------------------------------------------------------------------------
B|--10--8------8--10--11--13----------15--13----------10--11--10--8------8--
G|---------10-----------------10--10----------10--10-----------------10-----
D|--------------------------------------------------------------------------
A|--------------------------------------------------------------------------
E|--------------------------------------------------------------------------
http://www.guitartabcreator.com
Guitar Tab Creator is intended to store guitar tab created through the tool. It currently does not support in-line text editing. Any text you place in here will be lost. If you need to comment on your tab, please use the "Tab Notes" section located below.