Cool

(/) Slide Up  (\) Slide Down  (h) Hammer On  (p) Pull Off  (b) Bend (r) Release (v) Vibrato


E|-----------------------------------------------------------------------------------------
B|-----------------------------------------------------------------------------------------
G|--8------12------10------7---8-10-8------12------10------13---12---8------11---8---8---11
D|--9-------9------11------8---9--9-9-------9------11------11---11---9-------9---9---9----9
A|-----------------------------------------------------------------------------------------
E|-----------------------------------------------------------------------------------------

E|--------------------------------19vibra
B|--11---14---14---17---17---20---19vibra
G|--12---12---15---15---18---18----------
D|---------------------------------------
A|---------------------------------------
E|---------------------------------------
Guitar Tab Creator is intended to store guitar tab created through the tool. It currently does not support in-line text editing. Any text you place in here will be lost. If you need to comment on your tab, please use the "Tab Notes" section located below.