to be known

(/) Slide Up  (\) Slide Down  (h) Hammer On  (p) Pull Off  (b) Bend (r) Release (v) Vibrato

E|-----------------------------0--------------0-------0--------2------------------------0------3------
B|--0--------3--------1-------------1---3-----3---3---2----2---2---2---0--------3-----------0------0--
G|-------0--------0---0----0------0----------2--4--------3-------3----------0-------0-----0------0----
D|-----4--------4--------2------------2-4--4-------2--4------4-4-----4----4-------4------------2-----2 A|--2------2-2------2-3------3-3--------0-----0 0----------------------2------2-2-----2-2----2--------
E|----------------------------------------------------------------------------------------------------

E|-2--------3--------2--------5--------7---5h7-7---------------------------7--------7--------4------
B|------1--------1--------1---7----7---7---7---8----8---8--------10--------8---8--------6--------3--
G|----2--------2--------2--------5-------5--------9-----9----9----7----7-----7--------7--------4----
D/-0------0-0------0-1------1-------------------------9----9---------9--------------6-----7--3-----3
A|----------------------------6------6-6---6---7--------7------7--7------7-7-----7------------------
E|--------------------------------------------------------------------------------------------------

E|--10--------7-------8--------12--------------7--0vvvv
B|--------9-------6--10--------10---10---------9--1vvvv
G|-----10-------7----------9------9----------9---------
D|---9------9-6----7----10-----------------9----------- A|--------------------0------0--0------0-7--------0vvvv
E|-----------------------------------------------------
Guitar Tab Creator is intended to store guitar tab created through the tool. It currently does not support in-line text editing. Any text you place in here will be lost. If you need to comment on your tab, please use the "Tab Notes" section located below.