concept

(/) Slide Up  (\) Slide Down  (h) Hammer On  (p) Pull Off  (b) Bend (r) Release (v) Vibrato


E|-----------0h2-----3p2-----0h2--------------3--------5--------3--------
B|--------3-------3-------3-------3--------3-----3--------3--------3-----
G|-----2--------------------------------3-----------3--------3--------3--
D|--0--------------------------------0-----------------------------------
A|-----------------------------------------------------------------------
E|-----------------------------------------------------------------------



E|-----------0h2-----3p2-----0h2--------------1-----------------1----------------3--------
B|--------3-------3-------3-------3--------3-----3----------------------------------------
G|-----2--------------------------------2-----------2--------2-----2--------2h3-----3-----
D|--0-----------------------------------------------------0-----------0----------------0--
A|-----------------------------------1----------------------------------------------------
E|-----------------------------------------------------1-----------------3----------------



E|-----
B|-----
G|-----
D|-----
A|-----
E|-----



E|--------
B|--------
G|-----2--
D|--------
A|--0-----
E|--------



E|----------0-----
B|----------------
G|-----2h3--------
D|----------------
A|--0-------------
E|----------------
http://www.guitartabcreator.com
Guitar Tab Creator is intended to store guitar tab created through the tool. It currently does not support in-line text editing. Any text you place in here will be lost. If you need to comment on your tab, please use the "Tab Notes" section located below.