I See Them Marching, Solo

(/) Slide Up  (\) Slide Down  (h) Hammer On  (p) Pull Off  (b) Bend (r) Release (v) Vibrato


E|----------------------------12-10-12-12-12-12-12-12-15-15-15-15-15-15-12-12-17-17-17-
B|-10-10-10-10-10-12-13-13-13----------------------------------------------------------
G|-------------------------------------------------------------------------------------
D|-------------------------------------------------------------------------------------
A|-------------------------------------------------------------------------------------
E|-------------------------------------------------------------------------------------



E|-15-15-15-12-12-10-10-12-10------------------------------------------
B|----------------------------12-10------------------------------------
G|----------------------------------12-9-9-12-9-9-12-9-7-7-7-7-4-4-4-4-
D|---------------------------------------------------------------------
A|---------------------------------------------------------------------
E|---------------------------------------------------------------------
http://www.guitartabcreator.com
Guitar Tab Creator is intended to store guitar tab created through the tool. It currently does not support in-line text editing. Any text you place in here will be lost. If you need to comment on your tab, please use the "Tab Notes" section located below.