Dischorded

(/) Slide Up  (\) Slide Down  (h) Hammer On  (p) Pull Off  (b) Bend (r) Release (v) Vibrato


E|---------------------------------------------------------------------------
B|---------------------------------------------------------------8-----------
G|--------------6--4---------------------9-------------11-----9-----------8--
D|-----------4--------6--------4--11--9-----11--9--11------7-----------9-----
A|--4--4--6--------------4--6---------------------------------------7--------
E|---------------------------------------------------------------------------



E|------------------------------------------------------------------------------------------
B|------------------------------------------------------------------------------------------
G|-----8--------8--------8--------8--------8--------8--------8--------8--------8-----------6
D|--------9--------9--------9--------9--------9--------9--------9--------9--------9--6--4---
A|--7--------7--------7--------7--------7--------7--------7--------7--------7---------------
E|------------------------------------------------------------------------------------------ http://www.guitartabcreator.com
Guitar Tab Creator is intended to store guitar tab created through the tool. It currently does not support in-line text editing. Any text you place in here will be lost. If you need to comment on your tab, please use the "Tab Notes" section located below.