Clean Riff (Untitled)

(/) Slide Up  (\) Slide Down  (h) Hammer On  (p) Pull Off  (b) Bend (r) Release (v) Vibrato


E|----------2--2------------------------------------
B|----------2--2--2--2--2---------------------------
G|-------2--2--2--2-----2--4p2----------2--2--2--2--
D|--2h4-----4--4--4-----4-------4p2--2--2--2-----2--
A|-----------------------------------0--0--0-----0--
E|--------------------------------------------------



E|--------------------------------------------------
B|--------------------------------------------------
G|-------------2--2--2--2---------------2--2--2--2--
D|--4p2--------2--2-----2---------------2--2-----2--
A|-------4--2--2--2-----2--2h4--2p0--0--0--0-----0--
E|--------------------------------------------------
http://www.guitartabcreator.com
Guitar Tab Creator is intended to store guitar tab created through the tool. It currently does not support in-line text editing. Any text you place in here will be lost. If you need to comment on your tab, please use the "Tab Notes" section located below.