suci dalam debu fingerstyle

(/) Slide Up  (\) Slide Down  (h) Hammer On  (p) Pull Off  (b) Bend (r) Release (v) Vibrato
E|-----0--2--3--2--0-----0-----------0-----------------0--2--3--2--0--3/7--7-----------5--------------
B|--0-----------------4-----0-----0-----0-----------0----------------------------5-----------5--------
G|-----------------------------0-----------0----------------------------------5-----5-----5-----5-----
D|--------------------------------------------2-------------------------------------------------------
A|-------------------------------------------------------------------------0-----------0--------------
E|-----------------------0-----------------------0----------------------------------------------------



E|-----------2--3--5--7--8--7-----------5-----7--5--3-----------0-----------8--7--5--3--2--3--2--0--
B|--3-----3-----------------------0--------0--------------0-----------0-----------------------------
G|-----2--------------------0--0-----0-----------------0-----0-----0-----0--------------------------
D|--0-----------------------------------------------------------------------------------------------
A|--------------------------------------2-----------------------------------------------------------
E|--------------------------------------------------0-----------0-----------0-----------------------



E|-----------2-----------2-----0--2--3--0--
B|--4-----------4--------4--4--------------
G|--------2--------2-----2-----------------
D|-----4--------------4--4-----------------
A|--2--------------------2-----------------
E|--------------------------------------0--



E|--0--2--3--0--5--------------5--3--0--------------2--3--5--3--3-----------------2-----0--
B|--------------------5-----------------3-----3-----------------------0--------------0-----
G|-----------------5-----5-----------------2-----2-----------------0-----0-----------------
D|--------------------------------------0--------------------------------------0-----------
A|--------------0-----------0-----------------------------------------------------2--------
E|--------------------------------------------------------------3-----------3-----------0--



E|--7--5--8--7--7--5--7--------7--5--8--7--7--5--5--------5--3--5--3--2--0--------3--5--8--
B|--------------------------0--------------------------5--------------------3--------------
G|-----------------------0--------------------------5--------------------------2--------0--
D|--------------------------------------------------------------0--------------------------
A|-----------------------------------0-----------------------------------------------------
E|--------0--------------------------------------------------------------------------------



E|--7--7--5--7--
B|--------------
G|--------------
D|--------------
A|--------------
E|-----------7--



E|--3--2--0-----7-----5--------------2--3--5--3-----2--0--------0--2--------------0--
B|--------------------------5-----3-----------------------1--3--------4--------4--0--
G|-----------0-----0-----5-----5-----------------0--------------------------2-----0--
D|--------------------------------0--------------------------------------4--------1--
A|--------------------0-----------------------------------3-----------2-----------1--
E|--------0-----------------------------------3-----------------------------------0--
http://www.guitartabcreator.com
Guitar Tab Creator is intended to store guitar tab created through the tool. It currently does not support in-line text editing. Any text you place in here will be lost. If you need to comment on your tab, please use the "Tab Notes" section located below.