Langit ke 7

(/) Slide Up  (\) Slide Down  (h) Hammer On  (p) Pull Off  (b) Bend (r) Release (v) Vibrato


E|--14b15b14---------------------------------------17b19--15--14--15----14b15b14----------------
B|--------------15--13--12--------------------------------------------------------15--13--12b---
G|--------------------------14--12--11b12b11v---------------------------------------------------
D|----------------------------------------------------------------------------------------------
A|----------------------------------------------------------------------------------------------
E|----------------------------------------------------------------------------------------------



E|------------------------------------------
B|--12------12--15--------------------------
G|------14----------12--12--14--12--11--12--
D|------------------------------------------
A|------------------------------------------
E|------------------------------------------
http://www.guitartabcreator.com
Guitar Tab Creator is intended to store guitar tab created through the tool. It currently does not support in-line text editing. Any text you place in here will be lost. If you need to comment on your tab, please use the "Tab Notes" section located below.