LAGU BARU #TESTING SOUND FOUNDATION#

(/) Slide Up  (\) Slide Down  (h) Hammer On  (p) Pull Off  (b) Bend (r) Release (v) Vibrato
E|--------------------------------------
B|--------------------------------------
G|--5--5--5--5--7--7--7--7--4--4--4-----
D|--5--5--5--5--7--7--7--7--4--4--4--2--
A|--3--3--3--3--5--5--5--5--2--2--2--2--
E|--------------------------------------



E|--------------------------------------------------
B|--------------------------------------------------
G|--5--5--5--5--------------------------------------
D|--5--5--5--5--5--5--5--5--7--7--7--7--3--3--3--3--
A|--3--3--3--3--5--5--5--5--7--7--7--7--3--3--3--3--
E|--------------3--3--3--3--5--5--5--5--1--1--1--1--



E|--
B|--
G|--
D|--
A|--
E|--
http://www.guitartabcreator.com
Guitar Tab Creator is intended to store guitar tab created through the tool. It currently does not support in-line text editing. Any text you place in here will be lost. If you need to comment on your tab, please use the "Tab Notes" section located below.