ill follow you

(/) Slide Up  (\) Slide Down  (h) Hammer On  (p) Pull Off  (b) Bend (r) Release (v) Vibrato
E|------------------------------------------------------------------------
B|--13b15b13--11--13--11--10b11b10------10----------11--------------------
G|----------------------------------12------10--12------12--10h12p10------
D|--------------------------------------------------------------------12--
A|------------------------------------------------------------------------
E|------------------------------------------------------------------------



E|-------------------------------------------13--11--10---------------------
B|---------------------------------10h11p10--------------13--11--10---------
G|-------------------------10--12------------------------------------10-----
D|--12--12--10--8--10--12---------------------------------------------------
A|--------------------------------------------------------------------------
E|--------------------------------------------------------------------------



E|--18b20b18--17--17b18b17--15-------------------------------------
B|------------------------------18--15--15-----15--18--------------
G|--------------------------------------17b19----------17--15--15--
D|-----------------------------------------------------------------
A|-----------------------------------------------------------------
E|-----------------------------------------------------------------



E|------------------------------------------------------
B|--15--15--15--15--15--15--15--15----------------------
G|--14--14--14--14--14--14--14--14--14--14--14--14--14--
D|--12--12--12--12--12--12--12--12--14--14--14--14--14--
A|----------------------------------12--12--12--12--12--
E|------------------------------------------------------
http://www.guitartabcreator.com
Guitar Tab Creator is intended to store guitar tab created through the tool. It currently does not support in-line text editing. Any text you place in here will be lost. If you need to comment on your tab, please use the "Tab Notes" section located below.