adddddd

(/) Slide Up  (\) Slide Down  (h) Hammer On  (p) Pull Off  (b) Bend (r) Release (v) Vibrato


E|---------------------------------------------------------------------------------------------
B|--3--3--5--6--6--6-----------------------------3--3--3-------------------------3--5\6--6--6--
G|--------------------2--2--2--4--4--4--0--2--0-----------4--4--4--4\5--5--5--5----------------
D|---------------------------------------------------------------------------------------------
A|---------------------------------------------------------------------------------------------
E|---------------------------------------------------------------------------------------------



E|---------------------------------------------------
B|-----------------------3--5\6/5--8--6--5--6--5--1--
G|--2--2--4--4--4--4--5------------------------------
D|---------------------------------------------------
A|---------------------------------------------------
E|---------------------------------------------------
http://www.guitartabcreator.com
Guitar Tab Creator is intended to store guitar tab created through the tool. It currently does not support in-line text editing. Any text you place in here will be lost. If you need to comment on your tab, please use the "Tab Notes" section located below.