Scale Slide

(/) Slide Up  (\) Slide Down  (h) Hammer On  (p) Pull Off  (b) Bend (r) Release (v) Vibrato


E|------------------------------------------------7--9--10/12--10--9--------------------------
B|--------------------------------------7--9--10----------------------12--10--9---------------
G|-----------------------------6--7--9-------------------------------------------11--9--7-----
D|--------------------6--7--9-----------------------------------------------------------------
A|-----------5--7--9--------------------------------------------------------------------------
E|--5--7--9-----------------------------------------------------------------------------------



E|-------------------------------
B|-------------------------------
G|-------------------------------
D|--11--9--7---------------------
A|------------11--9--7-----------
E|----------------------10--9--7\
http://www.guitartabcreator.com
Guitar Tab Creator is intended to store guitar tab created through the tool. It currently does not support in-line text editing. Any text you place in here will be lost. If you need to comment on your tab, please use the "Tab Notes" section located below.