amherst guitar

(/) Slide Up  (\) Slide Down  (h) Hammer On  (p) Pull Off  (b) Bend (r) Release (v) Vibrato
this isnt the song's this is the chords of the songs in order.

song one. "times are changing and they arent turning back" DROP D
E|------ ---------
B|--5--- ---------
G|--5-5- -2-7-5-9-2
D|--3-5- (chorus)-2-7-5-9-2
A|----3- -0-5-3-7-0
E|------ -0-------0

song two. "never walk into the forest alone, you never know what you might find" DROP D
|----------------------------
|---4---4--4---6---6--6---(v)11 11 11 11 11 11 11 11 11 11
|---7---7--7---9---9--9------14 14 14 14 14 14 14 14 14 14 55555 55555 555 77777 77777 777
|000-000-00-000-000-00-0~-000----------------------------- 55555 55555 555 77777 77777 777 0~
|000-000-00-000-000-00-0~-000----------------------------- 33333-33333-333-55555-55555-555 0~
|000-000-00-000-000-00-0~-000----------------------------- --------------- ---0~

|
|
|
|10--5--7
|10--5--7
|8---3--5

if you want me to ill put the other song in but its the one u already know. hit me up if you have questions. *remember these arent in song form, they are the chords in order of how the song is played. most of the time it repeats itself.
Guitar Tab Creator is intended to store guitar tab created through the tool. It currently does not support in-line text editing. Any text you place in here will be lost. If you need to comment on your tab, please use the "Tab Notes" section located below.