T&S Leads

(/) Slide Up  (\) Slide Down  (h) Hammer On  (p) Pull Off  (b) Bend (r) Release (v) Vibrato


E|-----------------------------------
B|-----------------------------------
G|-----------------------------------
D|--------------7--------------------
A|--------4--5--5--5--5--7--7--7--7--
E|--5--7-----------3--3--5--5--5--5--



E|-------------------------
B|-----------3--2----------
G|--------4--4--2----4-----
D|--4--4--5--------2/5--4--
A|--5--5-----------0----2--
E|-------------------------
http://www.guitartabcreator.com
Guitar Tab Creator is intended to store guitar tab created through the tool. It currently does not support in-line text editing. Any text you place in here will be lost. If you need to comment on your tab, please use the "Tab Notes" section located below.