ghgh


E|-------------------7\9--9-------------------7\12--12--12--11--9------9------------------------------
B|--------------7\9----------------------7\9-----------------------12-----12--10--9----------------9--
G|-----6--8--9------------------6--8--9----------------------------------------------9--11--9--11-----
D|--9------------------------9------------------------------------------------------------------------
A|----------------------------------------------------------------------------------------------------
E|----------------------------------------------------------------------------------------------------



E|--12--11--9------9---------------------------9---------------------------------------------------------
B|-------------12-----12--10--9--------------------------------------------------------------------------
G|-------------------------------9--11--9--11---------------------------------------------2p1--2p1--2p1--
D|------------------------------------------------2p1--2p1--2p1--2p1--4p1--4p1--4p1--4p1-----------------
A|-------------------------------------------------------------------------------------------------------
E|-------------------------------------------------------------------------------------------------------



E|----------------------2p0--4p0--5\12--12--
B|------------2p0--4p0----------------------
G|--2p1--4p1--------------------------------
D|------------------------------------------
A|------------------------------------------
E|------------------------------------------
Guitar Tab Creator is intended to store guitar tab created through the tool. It currently does not support in-line text editing. Any text you place in here will be lost. If you need to comment on your tab, please use the "Tab Notes" section located below.