The Ear Project 1

(/) Slide Up  (\) Slide Down  (h) Hammer On  (p) Pull Off  (b) Bend (r) Release (v) Vibrato


E|---------------------------------
B|---------------------------------
G|-----9------9------9------9------
D|-----11-----11-----11-----11-----
A|-----11------------11------------
E|---------------------------------



E|-----------------------
B|-----------------9-----
G|-----8-----6-----8-----
D|-----9-----7-----9-----
A|-----9-----7-----7-----
E|-----7-----5-----------



E|-----------------
B|-----------------
G|-----2-----4-----
D|-----4-----4-----
A|-----4-----2-----
E|-----------------
http://www.guitartabcreator.com
Guitar Tab Creator is intended to store guitar tab created through the tool. It currently does not support in-line text editing. Any text you place in here will be lost. If you need to comment on your tab, please use the "Tab Notes" section located below.