Tsag agaar 2 heseg

(/) Slide Up  (\) Slide Down  (h) Hammer On  (p) Pull Off  (b) Bend (r) Release (v) Vibrato

G|--------------------------------------------------------------------------------------------------
D|--------------------------------------------------------------------------------------------------
A|--------------------------------------------------------2h3--4--5--5--5--5--5--5--5--5--5--3--3--
E|--5--5--5--5--5--5--5--5--5--3--3--5--5--5--5--5--5--5--------------------------------------------



G|--------------------------------------------------------------------------------------------------
D|--------------------------------------------------------------------------------------------------
A|--5--5--5--5--5--5--5--5--5--3--3--------------------------------------------------------2--3--4--
E|-----------------------------------5--5--5--5--5--5--5--5--5--3--3--5--5--5--5--5--5--5-----------



G|-----------------------------------------------------------------------------------------
D|-----------------------------------------------------------------------------------------
A|-----------------------------------------------------2--3--4--5--5--5--5--5--5--5--5--5--
E|--5--5--5--5--5--5--5--5--5--5--5--5--5--5--5--5--5--------------------------------------



G|-----------------------------
D|-----------------------------
A|--5--5--5--5--5--5--5--5--7--
E|-----------------------------



G|--------------------------------------------
D|--------7--6--4--6--7--------7--6--4--6--7--
A|--0--0-----------------0--0-----------------
E|--------------------------------------------



G|--------7--6--4--6--7--------7--6--4--4--6--7--
D|-----------------------------------------------
A|--5--5-----------------5--5--------------------
E|-----------------------------------------------



G|--------------------------------------------------
D|--------7--6--4--4--6--7--------7--6--4--4--6--7--
A|--0--0--------------------0--0--------------------
E|--------------------------------------------------



G|--------7--6--4--4--6--7--------7--6--4--4--6--7--
D|--------------------------------------------------
A|--5--5--------------------5--5--------------------
E|--------------------------------------------------
Guitar Tab Creator is intended to store guitar tab created through the tool. It currently does not support in-line text editing. Any text you place in here will be lost. If you need to comment on your tab, please use the "Tab Notes" section located below.