Tsag agaar 1 heseg

(/) Slide Up  (\) Slide Down  (h) Hammer On  (p) Pull Off  (b) Bend (r) Release (v) Vibrato

G|---------
D|---------
A|---------
E|--12--0--



G|--------------------------------------------------------------------
D|--------------------------------------------------------------------
A|--------------------------------------------------------------------
E|--5--5--5--5--5--5--5--5--5--3--3--5--5--5--5--5--5--5--5--5--3--3--



G|--------------------------------------------------------------------
D|-------------------------------------------------2--4--2------------
A|--------------------------------------------4h5-----------5---------
E|--2--2--2--2--2--2--2--2--2--0--0--2--2--2--------------------------



G|--------------------------------------------------------------------
D|--------------------------------------------------------------------
A|--5--5--5--5--5--5--5--5--5--3--3--5--5--5--5--5--5--5--5--5--3--3--
E|--------------------------------------------------------------------



G|--------------------------------------------------------------------
D|--------------------------------------------------------------------
A|--7--7--7--7--7--7--7--7--7--5--5--7--5-----------------------------
E|-----------------------------------------8--7-----------------------
Guitar Tab Creator is intended to store guitar tab created through the tool. It currently does not support in-line text editing. Any text you place in here will be lost. If you need to comment on your tab, please use the "Tab Notes" section located below.