Vinyl Guitar Solo

(/) Slide Up  (\) Slide Down  (h) Hammer On  (p) Pull Off  (b) Bend (r) Release (v) Vibrato


E|-------------------------------------------------------------------------------------------------
B|-------------------------------------------------------------------------------------------------
G|-------------------------------------------------------------------------------------------------
D|-------------------------------------------------------------------------------------------------
A|--------7--5--7-----7--5--7--10--9-----3--3--5--3--2--------7--5--7-----7--5--7--10--9-----5--0--
E|--0--0-----------0------------------0-----------------0--0-----------0------------------0--------



E|--------------
B|--------------
G|--------------
D|-----------5--
A|--5--6--7-----
E|--------------



E|-------------------------------------------------------------------------------------------------
B|-------------------------------------------------------------------------------------------------
G|-------------------------------------------------------------------------------------------------
D|--------7--5--7-----7--5--7--10--9-----3--3--5--3--2--------7--5--7-----7--5--7--10--9-----5-----
A|--0--0-----------0------------------0-----------------0--0-----------0------------------0--------
E|-------------------------------------------------------------------------------------------------



E|-----------------
B|-----------------
G|--------------5--
D|--0--5--6--7-----
A|-----------------
E|-----------------
http://www.guitartabcreator.com
Guitar Tab Creator is intended to store guitar tab created through the tool. It currently does not support in-line text editing. Any text you place in here will be lost. If you need to comment on your tab, please use the "Tab Notes" section located below.