Vinyl Bridge

(/) Slide Up  (\) Slide Down  (h) Hammer On  (p) Pull Off  (b) Bend (r) Release (v) Vibrato


E|------------------------------------------------------------------------
B|------------------------------------------------------------------------
G|------------------------------------------------------------------------
D|------------------------------------------------------------------------
A|-------------------------------------3--2----------------------------3--
E|--0h2--2--2--2--2--3--2--2--2--2--2--------3--0h2--2--2--2--2--0--1-----



E|----------------------------------
B|----------------------------------
G|----------------------------------
D|----------------------------------
A|-------------------------------5--
E|--3--2----------4--3--0--5--6-----
http://www.guitartabcreator.com
Guitar Tab Creator is intended to store guitar tab created through the tool. It currently does not support in-line text editing. Any text you place in here will be lost. If you need to comment on your tab, please use the "Tab Notes" section located below.