Vinyl Beginning Riff

(/) Slide Up  (\) Slide Down  (h) Hammer On  (p) Pull Off  (b) Bend (r) Release (v) Vibrato


E|-------------------------------------------------------------------------------------------------------
B|-------------------------------------------------------------------------------------------------------
G|-------------------------------------------------------------------------------------------------------
D|-------------------------------------------------------------------------------------------------------
A|-----------------7--5--7-----7--5--7--10--9-----3--5--3--2--------7--5--7-----7--5--7--10--9-----5-----
E|--6--5--6--0--0-----------0------------------0--------------0--0-----------0------------------0--------



E|-----------------
B|-----------------
G|-----------------
D|--------------5--
A|--0--5--6--7-----
E|-----------------
http://www.guitartabcreator.com
Guitar Tab Creator is intended to store guitar tab created through the tool. It currently does not support in-line text editing. Any text you place in here will be lost. If you need to comment on your tab, please use the "Tab Notes" section located below.