Louder Than God Bridge First Half

(/) Slide Up  (\) Slide Down  (h) Hammer On  (p) Pull Off  (b) Bend (r) Release (v) Vibrato


E|------------------------------------------------------------------------------------------
B|------------------------------------------------------------------------------------------
G|------------------------------------------------------------------------------------------
D|------------------------------------------------------------------------------------------
A|------------------------------------------------------------------------------------------
E|--8--7--7--7--7--7--8--8--7--7--7--7--7--8--8--7--7--7--7--7--7--8--8--7--7--7--7----7\0--



E|--------------------------------------------------------------------------------------
B|--------------------------------------------------------------------------------------
G|--------------------------------------------------------------------------------------
D|--------------------------------------------------------------------------------------
A|--------------------------------------7--5-----5--5-----------------------------------
E|--1--0--0--0--0--0--1--1--0--0--0--0--------7--------6--5--3--8--7--7--7--7--7--8--8--



E|----------------------
B|----------------------
G|----------------------
D|----------------------
A|----------------------
E|--7--7--7--7--7----0--
http://www.guitartabcreator.com
Guitar Tab Creator is intended to store guitar tab created through the tool. It currently does not support in-line text editing. Any text you place in here will be lost. If you need to comment on your tab, please use the "Tab Notes" section located below.