Death Race King Bridge into Solo

(/) Slide Up  (\) Slide Down  (h) Hammer On  (p) Pull Off  (b) Bend (r) Release (v) Vibrato


E|------------------------------------------------------------------------------------------------
B|------------------------------------------------------------------------------------------------
G|------------------------------------------------------------------------------------------------
D|------------------------------------------------------------------------------------------------
A|------------------------------------------------------------------------------------------------
E|--0----0--0--5--3--2--0--0--0----0----0--0--0--5--3--2--0--0--0----0----0--0--5--3--2--0--0--0--



E|--------
B|--------
G|--------
D|--------
A|--2--3--
E|--------



E|-----------------------------------------------------------------------------------------------
B|-----------------------------------------------------------------------------------------------
G|-----------------------------------------------------------------------------------------------
D|-----------------------------------------------------------------------------------------------
A|-----------------------------------------------------------------------------------------------
E|--0----0--0--5--3--2--0--0--0----0----0--0--5--3--2--0--0--0------0----0--0--5--3--2--0--0--0--



E|--------
B|--------
G|--------
D|--------
A|-----1--
E|--1-----



E|---------------------------------------------------------------------------------------------
B|---------------------------------------------------------------------------------------------
G|---------------------------------------------------------------------------------------------
D|---------------------------------------------------------------------------------------------
A|---------------------------------------------------------------------------------------------
E|--0----0--0--5--3--2--0--0--0----0----0--0--5--3--2--0--0--0----0----0--0--5--3--2--0--0--0--



E|--------
B|--------
G|--------
D|--------
A|--------
E|--3--3--



E|---------------------------------------------------------------------------------------------
B|---------------------------------------------------------------------------------------------
G|---------------------------------------------------------------------------------------------
D|---------------------------------------------------------------------------------------------
A|---------------------------------------------------------------------------------------------
E|--0----0--0--5--3--2--0--0--0----0----0--0--5--3--2--0--0--0----0----0--0--5--3--2--0--0--0--



E|--------------------------------------------------------------------------------------
B|--------------------------------------------------------------------------------------
G|--------------------------------------------------------------------------------------
D|--------------------------------------------------------------------------------------
A|-----3--0---------3---------0---------3---------0---------3---------0---------3-------
E|--3----------1---------0---------1---------0---------1---------0---------1---------0--



E|-----------------------
B|-----------------------
G|-----------------------
D|-----------------------
A|-----------------5-----
E|--0--0--0--0--0-----6--
http://www.guitartabcreator.com
Guitar Tab Creator is intended to store guitar tab created through the tool. It currently does not support in-line text editing. Any text you place in here will be lost. If you need to comment on your tab, please use the "Tab Notes" section located below.