Death Race King Beginning to Verse

(/) Slide Up  (\) Slide Down  (h) Hammer On  (p) Pull Off  (b) Bend (r) Release (v) Vibrato


E|-----------------------------------------------------------------------------
B|-----------------------------------------------------------------------------
G|-----------------------------------------------------------------------------
D|-----------------------------------------------------------------------------
A|--------------------------------------------------------------3--2-----5--3--
E|--10--12--10--10--12--10--12--10--10--12--10--12--10--10--12--------3--------



E|-----------------------------------------------------------------------------------------
B|-----------------------------------------------------------------------------------------
G|-----------------------------------------------------------------------------------------
D|-----------------------------------------------------------------------------------------
A|--------------------------------------------------------------------------------------3--
E|--0----0----0--0--0----0----0----0--0--0----0----0----0--0--0----0----0----0--0--0-------



E|-----------------------------------------------------------------------------------------
B|-----------------------------------------------------------------------------------------
G|-----------------------------------------------------------------------------------------
D|-----------------------------------------------------------------------------------------
A|-----------------------------------------------------------------------------------------
E|--0----0----0--0--0----0----0----0--0--0----0----0----0--0--0----0----0----0--0--0----3--



E|--------------------------------------------------------------------------------------------
B|--------------------------------------------------------------------------------------------
G|--------------------------------------------------------------------------------------------
D|--------------------------------------------------------------------------------------------
A|--------------------------------------------------------------------------------------------
E|--0----0----0--0--0----0----0----0--0--0----0----0----0--0--0----0----0----0--0--0----1-----



E|------------------------------------------------------------------------------------
B|------------------------------------------------------------------------------------
G|------------------------------------------------------------------------------------
D|------------------------------------------------------------------------------------
A|------------------------------------------------------------------------------------
E|--0----0----0--0--0----0----0----0--0--0----0----0----0--0--0----0----0----0--0--0--



E|-----------------
B|-----------------
G|-----------------
D|-----------------
A|--3--2-----5--3--
E|--------3--------
http://www.guitartabcreator.com
Guitar Tab Creator is intended to store guitar tab created through the tool. It currently does not support in-line text editing. Any text you place in here will be lost. If you need to comment on your tab, please use the "Tab Notes" section located below.