I'm Low On Gas And You Need A Jacket

(/) Slide Up  (\) Slide Down  (h) Hammer On  (p) Pull Off  (b) Bend (r) Release (v) Vibrato


E|-----------------------
B|---3---2---7---2-------
G|---4---2---7---2---5---
D|-----------------------
A|---4---2---7---2-------
E|-------------------5---



E|---------------------------
B|---7---5---7---2-------2---
G|---7-------7---2---5---2---
D|---------------------------
A|---7---6---7---2-------2---
E|-------------------5-------



E|---------------------------------------
B|---7---7-------2---7---7-------2---7---
G|---7---7---5---2---7---7---5---2---7---
D|---------------------------------------
A|---7---7-------2---7---7-------2---7---
E|-----------5---------------5-----------
http://www.guitartabcreator.com
Guitar Tab Creator is intended to store guitar tab created through the tool. It currently does not support in-line text editing. Any text you place in here will be lost. If you need to comment on your tab, please use the "Tab Notes" section located below.